Lorem ipsum
Class aptent taciti sociosqu ad litora
Главная » Видео » Video lessons [ Добавить видео ]

Guitar Lesson - BTO - Takin' Care of Business - With Printable Tabs


00:07:01
Описание материала:

**TABS FOR THIS LESSON: http://jpst.it/AeiZ
Classic rock song Takin Care of Business by BTO. Guitar lesson with step by step method with easy to follow tabs in the video.

TABS for this lesson available on my guitar lesson website: http://www.bobsguitarlessons.yolasite.com
Facebook: https://www.facebook.com/BobbyCrispyGuitarLessons

E-------------------------------------------------------------
B-------------------------------------------------------------
G-------------------------------------------------------------
D----------------------------------8---8---10---8---8----
A----10--10--12--10--10----6---6----6----6---6----
E----8----8----8----8----8--------------------------------

E-----------------------------------------------------------------
B-----------------------------------------------------------------
G-----------------------------------------------------------------
D----10--10--12--10--10-----------------------------------
A----8-----8---8----8----8------10--10--12--10--10----
E-----------------------------------------------------------------

E----12--12--12--12--12----------------------------------
B----11--11--11--11--11-------8-------------------------
G-------------------------------------8---6b------------------
D-------------------------------------------------8---6---8---
A----------------------------------------------------------------
E----------------------------------------------------------------

E----5--5--5--5--5---------------------------------------
B----4--4--4--4--4-------10----------------------------
G----5--5--5--5--5-------10---8b----------------------
D----------------------------------------10---8---10-----
A------------------------------------------------------------
E-------------------------------------------------------------

E----8-----8-------------------------------------6---6---6---
B----8-----8-----10---10---10-----8---8----6---6---6---
G----9-----9-----10---10---10-----8---8----7---7---7---
D----10---10----10---10---10-----8---8----8---8---8---
A----10---10----8------8-----8------6---6----8---8---8---
E----8-----8---------------------------------------6---6---6---

Автор: Guitar Lessons BobbyCrispy
Вам будет интересно посмотреть ещё видео из разделов: Video lessons, Business
Всего комментариев: 0
avatar